ISO-10303-21;
HEADER;
FILE_DESCRIPTION (( 'STEP AP214' ),
    '1' );
FILE_NAME ('SK16-12_light.STEP',
    '2020-11-23T16:27:01',
    ( 'Adriana' ),
    ( 'HP Inc.' ),
    'SwSTEP 2.0',
    'SolidWorks 2020',
    '' );
FILE_SCHEMA (( 'AUTOMOTIVE_DESIGN' ));
ENDSEC;

DATA;
#1 = AXIS2_PLACEMENT_3D ( 'NONE', #38, #353, #93 ) ;
#2 = EDGE_LOOP ( 'NONE', ( #6 ) ) ;
#3 = ORIENTED_EDGE ( 'NONE', *, *, #4, .F. ) ;
#4 = EDGE_CURVE ( 'NONE', #68, #68, #299, .T. ) ;
#5 = PRODUCT ( 'SK16-12_light', 'SK16-12_light', '', ( #193 ) ) ;
#6 = ORIENTED_EDGE ( 'NONE', *, *, #140, .T. ) ;
#7 = EDGE_LOOP ( 'NONE', ( #179 ) ) ;
#8 = DIRECTION ( 'NONE',  ( -3.491481338843133355E-15, 0.0000000000000000000, -1.000000000000000000 ) ) ;
#9 = CIRCLE ( 'NONE', #181, 10.50000000000000000 ) ;
#10 = FACE_BOUND ( 'NONE', #36, .T. ) ;
#11 = FACE_OUTER_BOUND ( 'NONE', #60, .T. ) ;
#12 = FACE_OUTER_BOUND ( 'NONE', #206, .T. ) ;
#13 = DIRECTION ( 'NONE',  ( 1.000000000000000000, 0.0000000000000000000, -3.469446951953614189E-15 ) ) ;
#14 = EDGE_LOOP ( 'NONE', ( #82 ) ) ;
#15 = DIRECTION ( 'NONE',  ( -1.000000000000000000, 0.0000000000000000000, 3.491481338843133750E-15 ) ) ;
#16 = AXIS2_PLACEMENT_3D ( 'NONE', #176, #157, #298 ) ;
#17 = DIRECTION ( 'NONE',  ( 1.000000000000000000, 0.0000000000000000000, -3.469446951953614189E-15 ) ) ;
#18 = STYLED_ITEM ( 'NONE', ( #80 ), #320 ) ;
#19 = CARTESIAN_POINT ( 'NONE',  ( -3.042084047017286134E-14, 0.0000000000000000000, -8.712875000000000369 ) ) ;
#20 = CARTESIAN_POINT ( 'NONE',  ( -10.35000000000015064, 0.0000000000000000000, -43.34999999999996589 ) ) ;
#21 =( NAMED_UNIT ( * ) SI_UNIT ( $, .STERADIAN. ) SOLID_ANGLE_UNIT ( ) );
#22 = PLANE ( 'NONE',  #145 ) ;
#23 = DIRECTION ( 'NONE',  ( -3.491481338843133355E-15, 0.0000000000000000000, -1.000000000000000000 ) ) ;
#24 = DIRECTION ( 'NONE',  ( -3.491481338843133355E-15, 0.0000000000000000000, -1.000000000000000000 ) ) ;
#25 = CONICAL_SURFACE ( 'NONE', #150, 8.000000000000000000, 1.047197551196598297 ) ;
#26 = FACE_BOUND ( 'NONE', #113, .T. ) ;
#27 = ADVANCED_FACE ( 'NONE', ( #271, #11 ), #85, .T. ) ;
#28 = EDGE_LOOP ( 'NONE', ( #88 ) ) ;
#29 = CARTESIAN_POINT ( 'NONE',  ( 0.0000000000000000000, 0.0000000000000000000, 0.0000000000000000000 ) ) ;
#30 = AXIS2_PLACEMENT_3D ( 'NONE', #44, #305, #73 ) ;
#31 = CARTESIAN_POINT ( 'NONE',  ( -9.500000000000149214, 0.0000000000000000000, -42.49999999999997158 ) ) ;
#32 = ORIENTED_EDGE ( 'NONE', *, *, #226, .F. ) ;
#33 = ORIENTED_EDGE ( 'NONE', *, *, #209, .F. ) ;
#34 = COLOUR_RGB ( '',0.5019607843137254832, 0.5019607843137254832, 0.5019607843137254832 ) ;
#35 = FACE_OUTER_BOUND ( 'NONE', #349, .T. ) ;
#36 = EDGE_LOOP ( 'NONE', ( #37 ) ) ;
#37 = ORIENTED_EDGE ( 'NONE', *, *, #122, .F. ) ;
#38 = CARTESIAN_POINT ( 'NONE',  ( -1.571166602479409884E-13, 0.0000000000000000000, -45.00000000000000000 ) ) ;
#39 = AXIS2_PLACEMENT_3D ( 'NONE', #308, #8, #15 ) ;
#40 = DIRECTION ( 'NONE',  ( -3.491481338843133355E-15, 0.0000000000000000000, -1.000000000000000000 ) ) ;
#41 = ORIENTED_EDGE ( 'NONE', *, *, #262, .F. ) ;
#42 = CARTESIAN_POINT ( 'NONE',  ( -1.389609572859567202E-13, 0.0000000000000000000, -39.80000000000000426 ) ) ;
#43 = DIRECTION ( 'NONE',  ( -1.000000000000000000, 0.0000000000000000000, 3.384638075691029593E-15 ) ) ;
#44 = CARTESIAN_POINT ( 'NONE',  ( 0.0000000000000000000, 0.0000000000000000000, 0.0000000000000000000 ) ) ;
#45 = CLOSED_SHELL ( 'NONE', ( #75, #261, #275, #47, #203, #213, #166, #27, #239, #97, #306, #296, #148, #105, #224, #136 ) ) ;
#46 = FACE_OUTER_BOUND ( 'NONE', #14, .T. ) ;
#47 = ADVANCED_FACE ( 'NONE', ( #10, #175 ), #295, .T. ) ;
#48 = VERTEX_POINT ( 'NONE', #361 ) ;
#49 = CARTESIAN_POINT ( 'NONE',  ( -1.891900344569893752E-13, 0.0000000000000000000, -54.18617947408979774 ) ) ;
#50 = DIRECTION ( 'NONE',  ( 0.0000000000000000000, 1.000000000000000000, 0.0000000000000000000 ) ) ;
#51 = DIRECTION ( 'NONE',  ( 0.0000000000000000000, 1.000000000000000000, 0.0000000000000000000 ) ) ;
#52 = AXIS2_PLACEMENT_3D ( 'NONE', #19, #367, #79 ) ;
#53 = CARTESIAN_POINT ( 'NONE',  ( -1.891900344569893752E-13, 0.0000000000000000000, -54.18617947408979774 ) ) ;
#54 =( NAMED_UNIT ( * ) SI_UNIT ( $, .STERADIAN. ) SOLID_ANGLE_UNIT ( ) );
#55 = APPLICATION_CONTEXT ( 'automotive_design' ) ;
#56 = ORIENTED_EDGE ( 'NONE', *, *, #140, .F. ) ;
#57 = EDGE_LOOP ( 'NONE', ( #155 ) ) ;
#58 =( LENGTH_UNIT ( ) NAMED_UNIT ( * ) SI_UNIT ( .MILLI., .METRE. ) );
#59 = ORIENTED_EDGE ( 'NONE', *, *, #312, .F. ) ;
#60 = EDGE_LOOP ( 'NONE', ( #257 ) ) ;
#61 = ORIENTED_EDGE ( 'NONE', *, *, #154, .T. ) ;
#62 = CARTESIAN_POINT ( 'NONE',  ( 0.0000000000000000000, 9.199999999999999289, 0.0000000000000000000 ) ) ;
#63 = EDGE_LOOP ( 'NONE', ( #373 ) ) ;
#64 = CYLINDRICAL_SURFACE ( 'NONE', #285, 9.400000000000000355 ) ;
#65 = SURFACE_STYLE_FILL_AREA ( #69 ) ;
#66 = CONICAL_SURFACE ( 'NONE', #208, 10.34999999999999964, 0.7853981633974645993 ) ;
#67 = AXIS2_PLACEMENT_3D ( 'NONE', #190, #24, #43 ) ;
#68 = VERTEX_POINT ( 'NONE', #96 ) ;
#69 = FILL_AREA_STYLE ('',( #94 ) ) ;
#70 = DIRECTION ( 'NONE',  ( -3.491481338843133355E-15, 0.0000000000000000000, -1.000000000000000000 ) ) ;
#71 = EDGE_CURVE ( 'NONE', #191, #191, #366, .T. ) ;
#72 = FACE_OUTER_BOUND ( 'NONE', #87, .T. ) ;
#73 = DIRECTION ( 'NONE',  ( 1.000000000000000000, 0.0000000000000000000, -3.491481338843133355E-15 ) ) ;
#74 = DIRECTION ( 'NONE',  ( -3.491481338843133355E-15, 0.0000000000000000000, -1.000000000000000000 ) ) ;
#75 = ADVANCED_FACE ( 'NONE', ( #289, #35 ), #354, .F. ) ;
#76 = CARTESIAN_POINT ( 'NONE',  ( -10.35000000000015596, 0.0000000000000000000, -44.49999999999996447 ) ) ;
#77 = FACE_BOUND ( 'NONE', #178, .T. ) ;
#78 = MANIFOLD_SOLID_BREP ( 'NONE', #45 ) ;
#79 = DIRECTION ( 'NONE',  ( -1.000000000000000000, 0.0000000000000000000, 3.430722669818042699E-15 ) ) ;
#80 = PRESENTATION_STYLE_ASSIGNMENT (( #143 ) ) ;
#81 = CARTESIAN_POINT ( 'NONE',  ( -9.400000000000028777, 0.0000000000000000000, -7.999999999999967137 ) ) ;
#82 = ORIENTED_EDGE ( 'NONE', *, *, #327, .T. ) ;
#83 = PLANE ( 'NONE',  #16 ) ;
#84 = VERTEX_POINT ( 'NONE', #339 ) ;
#85 = CONICAL_SURFACE ( 'NONE', #335, 12.30068399999998086, 0.06981317306550956225 ) ;
#86 = UNCERTAINTY_MEASURE_WITH_UNIT (LENGTH_MEASURE( 1.000000000000000082E-05 ), #374, 'distance_accuracy_value', 'NONE');
#87 = EDGE_LOOP ( 'NONE', ( #61 ) ) ;
#88 = ORIENTED_EDGE ( 'NONE', *, *, #177, .T. ) ;
#89 = AXIS2_PLACEMENT_3D ( 'NONE', #322, #120, #183 ) ;
#90 = SURFACE_SIDE_STYLE ('',( #65 ) ) ;
#91 = CARTESIAN_POINT ( 'NONE',  ( -6.982962677685498557E-16, 0.0000000000000000000, -0.1999999999999780009 ) ) ;
#92 = FACE_OUTER_BOUND ( 'NONE', #310, .T. ) ;
#93 = DIRECTION ( 'NONE',  ( 1.000000000000000000, 0.0000000000000000000, -3.522281169496055046E-15 ) ) ;
#94 = FILL_AREA_STYLE_COLOUR ( '', #220 ) ;
#95 = CARTESIAN_POINT ( 'NONE',  ( -6.982962677685498557E-16, 0.0000000000000000000, -0.1999999999999780009 ) ) ;
#96 = CARTESIAN_POINT ( 'NONE',  ( -9.400000000000000355, 0.0000000000000000000, -0.1999999999999451661 ) ) ;
#97 = ADVANCED_FACE ( 'NONE', ( #303, #101 ), #236, .F. ) ;
#98 = CARTESIAN_POINT ( 'NONE',  ( -9.199999999999999289, 0.0000000000000000000, 3.212162831735682687E-14 ) ) ;
#99 = CARTESIAN_POINT ( 'NONE',  ( -1.513557160388498341E-13, 0.0000000000000000000, -43.35000000000000142 ) ) ;
#100 = FACE_BOUND ( 'NONE', #63, .T. ) ;
#101 = FACE_OUTER_BOUND ( 'NONE', #111, .T. ) ;
#102 = CARTESIAN_POINT ( 'NONE',  ( -2.793185071074506684E-14, 0.0000000000000000000, -8.000000000000000000 ) ) ;
#103 = FACE_OUTER_BOUND ( 'NONE', #118, .T. ) ;
#104 = CARTESIAN_POINT ( 'NONE',  ( -10.50000000000013856, 0.0000000000000000000, -39.79999999999996874 ) ) ;
#105 = ADVANCED_FACE ( 'NONE', ( #326, #225 ), #362, .T. ) ;
#106 = DIRECTION ( 'NONE',  ( -1.000000000000000000, 0.0000000000000000000, 3.430722669818042699E-15 ) ) ;
#107 = APPLICATION_PROTOCOL_DEFINITION ( 'draft international standard', 'automotive_design', 1998, #55 ) ;
#108 = AXIS2_PLACEMENT_3D ( 'NONE', #119, #158, #128 ) ;
#109 = EDGE_LOOP ( 'NONE', ( #142 ) ) ;
#110 = AXIS2_PLACEMENT_3D ( 'NONE', #333, #248, #51 ) ;
#111 = EDGE_LOOP ( 'NONE', ( #204 ) ) ;
#112 = EDGE_LOOP ( 'NONE', ( #315 ) ) ;
#113 = EDGE_LOOP ( 'NONE', ( #371 ) ) ;
#114 = UNCERTAINTY_MEASURE_WITH_UNIT (LENGTH_MEASURE( 1.000000000000000082E-05 ), #318, 'distance_accuracy_value', 'NONE');
#115 = CONICAL_SURFACE ( 'NONE', #317, 10.11287500000000072, 0.7853981633974476129 ) ;
#116 = AXIS2_PLACEMENT_3D ( 'NONE', #273, #162, #17 ) ;
#117 = ORIENTED_EDGE ( 'NONE', *, *, #226, .T. ) ;
#118 = EDGE_LOOP ( 'NONE', ( #348 ) ) ;
#119 = CARTESIAN_POINT ( 'NONE',  ( -1.513557160388498341E-13, 0.0000000000000000000, -43.35000000000000142 ) ) ;
#120 = DIRECTION ( 'NONE',  ( 3.491481338843133355E-15, 0.0000000000000000000, 1.000000000000000000 ) ) ;
#121 = DIRECTION ( 'NONE',  ( -3.491481338843133355E-15, 0.0000000000000000000, -1.000000000000000000 ) ) ;
#122 = EDGE_CURVE ( 'NONE', #302, #302, #343, .T. ) ;
#123 = ORIENTED_EDGE ( 'NONE', *, *, #356, .T. ) ;
#124 = DIRECTION ( 'NONE',  ( -3.491481338843133355E-15, 0.0000000000000000000, -1.000000000000000000 ) ) ;
#125 = AXIS2_PLACEMENT_3D ( 'NONE', #211, #40, #254 ) ;
#126 = DIRECTION ( 'NONE',  ( -3.491481338843133355E-15, 0.0000000000000000000, -1.000000000000000000 ) ) ;
#127 = PRODUCT_RELATED_PRODUCT_CATEGORY ( 'part', '', ( #5 ) ) ;
#128 = DIRECTION ( 'NONE',  ( -1.000000000000000000, 0.0000000000000000000, 3.352122658892380954E-15 ) ) ;
#129 = VERTEX_POINT ( 'NONE', #104 ) ;
#130 = CARTESIAN_POINT ( 'NONE',  ( -1.571166602479409884E-13, 0.0000000000000000000, -45.00000000000000000 ) ) ;
#131 = PLANE ( 'NONE',  #110 ) ;
#132 = CARTESIAN_POINT ( 'NONE',  ( -1.389609572859567202E-13, 0.0000000000000000000, -39.80000000000000426 ) ) ;
#133 = FACE_OUTER_BOUND ( 'NONE', #167, .T. ) ;
#134 = SHAPE_DEFINITION_REPRESENTATION ( #290, #320 ) ;
#135 = VERTEX_POINT ( 'NONE', #137 ) ;
#136 = ADVANCED_FACE ( 'NONE', ( #77, #192 ), #131, .T. ) ;
#137 = CARTESIAN_POINT ( 'NONE',  ( -9.850000000000157740, 0.0000000000000000000, -44.99999999999996447 ) ) ;
#138 = AXIS2_PLACEMENT_3D ( 'NONE', #49, #163, #278 ) ;
#139 =( GEOMETRIC_REPRESENTATION_CONTEXT ( 3 ) GLOBAL_UNCERTAINTY_ASSIGNED_CONTEXT ( ( #86 ) ) GLOBAL_UNIT_ASSIGNED_CONTEXT ( ( #374, #334, #54 ) ) REPRESENTATION_CONTEXT ( 'NONE', 'WORKASPACE' ) );
#140 = EDGE_CURVE ( 'NONE', #276, #276, #265, .T. ) ;
#141 = VERTEX_POINT ( 'NONE', #200 ) ;
#142 = ORIENTED_EDGE ( 'NONE', *, *, #209, .T. ) ;
#143 = SURFACE_STYLE_USAGE ( .BOTH. , #172 ) ;
#144 = AXIS2_PLACEMENT_3D ( 'NONE', #95, #321, #267 ) ;
#145 = AXIS2_PLACEMENT_3D ( 'NONE', #240, #121, #50 ) ;
#146 = ORIENTED_EDGE ( 'NONE', *, *, #173, .F. ) ;
#147 = DIRECTION ( 'NONE',  ( -1.000000000000000000, 0.0000000000000000000, 3.384638075691029593E-15 ) ) ;
#148 = ADVANCED_FACE ( 'NONE', ( #245, #103 ), #66, .T. ) ;
#149 = DIRECTION ( 'NONE',  ( -3.491481338843133355E-15, 0.0000000000000000000, -1.000000000000000000 ) ) ;
#150 = AXIS2_PLACEMENT_3D ( 'NONE', #279, #186, #219 ) ;
#151 = DIRECTION ( 'NONE',  ( -3.491481338843133355E-15, 0.0000000000000000000, -1.000000000000000000 ) ) ;
#152 = DIRECTION ( 'NONE',  ( -1.000000000000000000, 0.0000000000000000000, 3.352122658892380954E-15 ) ) ;
#153 = DIRECTION ( 'NONE',  ( -1.000000000000000000, 0.0000000000000000000, 3.304235192336775512E-15 ) ) ;
#154 = EDGE_CURVE ( 'NONE', #48, #48, #307, .T. ) ;
#155 = ORIENTED_EDGE ( 'NONE', *, *, #346, .F. ) ;
#156 = DIRECTION ( 'NONE',  ( -1.000000000000000000, 0.0000000000000000000, 3.690901012716610453E-15 ) ) ;
#157 = DIRECTION ( 'NONE',  ( -3.491481338843133355E-15, 0.0000000000000000000, -1.000000000000000000 ) ) ;
#158 = DIRECTION ( 'NONE',  ( -3.491481338843133355E-15, 0.0000000000000000000, -1.000000000000000000 ) ) ;
#159 = AXIS2_PLACEMENT_3D ( 'NONE', #243, #269, #360 ) ;
#160 = MECHANICAL_DESIGN_GEOMETRIC_PRESENTATION_REPRESENTATION (  '', ( #18 ), #139 ) ;
#161 = CARTESIAN_POINT ( 'NONE',  ( -1.571166602479409884E-13, 0.0000000000000000000, -45.00000000000000000 ) ) ;
#162 = DIRECTION ( 'NONE',  ( 3.491481338843133355E-15, 0.0000000000000000000, 1.000000000000000000 ) ) ;
#163 = DIRECTION ( 'NONE',  ( -3.491481338843133355E-15, 0.0000000000000000000, -1.000000000000000000 ) ) ;
#164 = VERTEX_POINT ( 'NONE', #31 ) ;
#165 = DIRECTION ( 'NONE',  ( 3.491481338843133355E-15, 0.0000000000000000000, 1.000000000000000000 ) ) ;
#166 = ADVANCED_FACE ( 'NONE', ( #26, #133 ), #115, .T. ) ;
#167 = EDGE_LOOP ( 'NONE', ( #56 ) ) ;
#168 = PRODUCT_DEFINITION ( 'UNKNOWN', '', #174, #351 ) ;
#169 = CONICAL_SURFACE ( 'NONE', #144, 9.400000000000000355, 0.7853981633975168908 ) ;
#170 = AXIS2_PLACEMENT_3D ( 'NONE', #130, #74, #247 ) ;
#171 = EDGE_LOOP ( 'NONE', ( #33 ) ) ;
#172 = SURFACE_SIDE_STYLE ('',( #197 ) ) ;
#173 = EDGE_CURVE ( 'NONE', #297, #297, #331, .T. ) ;
#174 = PRODUCT_DEFINITION_FORMATION_WITH_SPECIFIED_SOURCE ( 'ANY', '', #5, .NOT_KNOWN. ) ;
#175 = FACE_OUTER_BOUND ( 'NONE', #316, .T. ) ;
#176 = CARTESIAN_POINT ( 'NONE',  ( -1.396592535537253342E-13, 10.50000000000000000, -40.00000000000000000 ) ) ;
#177 = EDGE_CURVE ( 'NONE', #368, #368, #260, .T. ) ;
#178 = EDGE_LOOP ( 'NONE', ( #41 ) ) ;
#179 = ORIENTED_EDGE ( 'NONE', *, *, #262, .T. ) ;
#180 = FACE_OUTER_BOUND ( 'NONE', #235, .T. ) ;
#181 = AXIS2_PLACEMENT_3D ( 'NONE', #42, #124, #153 ) ;
#182 = CIRCLE ( 'NONE', #301, 9.849999999999999645 ) ;
#183 = DIRECTION ( 'NONE',  ( 1.000000000000000000, 0.0000000000000000000, -3.469446951953614189E-15 ) ) ;
#184 = CARTESIAN_POINT ( 'NONE',  ( 8.000000000000000000, 0.0000000000000000000, -2.793185071074506684E-14 ) ) ;
#185 = CARTESIAN_POINT ( 'NONE',  ( -1.891900344569893752E-13, 0.0000000000000000000, -54.18617947408979774 ) ) ;
#186 = DIRECTION ( 'NONE',  ( 3.491481338843133355E-15, 0.0000000000000000000, 1.000000000000000000 ) ) ;
#187 = CYLINDRICAL_SURFACE ( 'NONE', #309, 9.500000000000000000 ) ;
#188 = PRESENTATION_LAYER_ASSIGNMENT (  '', '', ( #232 ) ) ;
#189 = AXIS2_PLACEMENT_3D ( 'NONE', #102, #126, #358 ) ;
#190 = CARTESIAN_POINT ( 'NONE',  ( -1.396592535537253342E-13, 0.0000000000000000000, -40.00000000000000000 ) ) ;
#191 = VERTEX_POINT ( 'NONE', #76 ) ;
#192 = FACE_OUTER_BOUND ( 'NONE', #282, .T. ) ;
#193 = PRODUCT_CONTEXT ( 'NONE', #288, 'mechanical' ) ;
#194 = CARTESIAN_POINT ( 'NONE',  ( -3.018490173895947507E-14, 0.0000000000000000000, -8.645299461620760795 ) ) ;
#195 = AXIS2_PLACEMENT_3D ( 'NONE', #53, #23, #329 ) ;
#196 = PRESENTATION_LAYER_ASSIGNMENT (  '', '', ( #18 ) ) ;
#197 = SURFACE_STYLE_FILL_AREA ( #311 ) ;
#198 = FACE_BOUND ( 'NONE', #171, .T. ) ;
#199 = EDGE_LOOP ( 'NONE', ( #214 ) ) ;
#200 = CARTESIAN_POINT ( 'NONE',  ( -9.500000000000138556, 0.0000000000000000000, -39.79999999999996874 ) ) ;
#201 = EDGE_LOOP ( 'NONE', ( #59 ) ) ;
#202 = AXIS2_PLACEMENT_3D ( 'NONE', #194, #165, #280 ) ;
#203 = ADVANCED_FACE ( 'NONE', ( #355, #92 ), #169, .T. ) ;
#204 = ORIENTED_EDGE ( 'NONE', *, *, #207, .F. ) ;
#205 = ORIENTED_EDGE ( 'NONE', *, *, #337, .T. ) ;
#206 = EDGE_LOOP ( 'NONE', ( #352 ) ) ;
#207 = EDGE_CURVE ( 'NONE', #129, #129, #9, .T. ) ;
#208 = AXIS2_PLACEMENT_3D ( 'NONE', #99, #222, #218 ) ;
#209 = EDGE_CURVE ( 'NONE', #246, #246, #314, .T. ) ;
#210 = CARTESIAN_POINT ( 'NONE',  ( -1.396592535537253342E-13, 0.0000000000000000000, -40.00000000000000000 ) ) ;
#211 = CARTESIAN_POINT ( 'NONE',  ( -1.483879569008331865E-13, 0.0000000000000000000, -42.50000000000000000 ) ) ;
#212 = ORIENTED_EDGE ( 'NONE', *, *, #173, .T. ) ;
#213 = ADVANCED_FACE ( 'NONE', ( #12, #363 ), #64, .T. ) ;
#214 = ORIENTED_EDGE ( 'NONE', *, *, #71, .F. ) ;
#215 = CARTESIAN_POINT ( 'NONE',  ( -10.11287500000003092, 0.0000000000000000000, -8.712874999999964842 ) ) ;
#216 = DIRECTION ( 'NONE',  ( -3.491481338843133355E-15, 0.0000000000000000000, -1.000000000000000000 ) ) ;
#217 = FACE_OUTER_BOUND ( 'NONE', #319, .T. ) ;
#218 = DIRECTION ( 'NONE',  ( -1.000000000000000000, 0.0000000000000000000, 3.352122658892380954E-15 ) ) ;
#219 = DIRECTION ( 'NONE',  ( 1.000000000000000000, 0.0000000000000000000, -3.469446951953614189E-15 ) ) ;
#220 = COLOUR_RGB ( '',0.5019607843137254832, 0.5019607843137254832, 0.5019607843137254832 ) ;
#221 = CARTESIAN_POINT ( 'NONE',  ( 1.364508115154554993E-14, 0.0000000000000000000, 3.908106567760349925 ) ) ;
#222 = DIRECTION ( 'NONE',  ( -3.491481338843133355E-15, 0.0000000000000000000, -1.000000000000000000 ) ) ;
#223 = CARTESIAN_POINT ( 'NONE',  ( -10.50000000000014033, 0.0000000000000000000, -39.99999999999996447 ) ) ;
#224 = ADVANCED_FACE ( 'NONE', ( #272, #180 ), #323, .T. ) ;
#225 = FACE_OUTER_BOUND ( 'NONE', #199, .T. ) ;
#226 = EDGE_CURVE ( 'NONE', #164, #164, #241, .T. ) ;
#227 =( GEOMETRIC_REPRESENTATION_CONTEXT ( 3 ) GLOBAL_UNCERTAINTY_ASSIGNED_CONTEXT ( ( #114 ) ) GLOBAL_UNIT_ASSIGNED_CONTEXT ( ( #318, #357, #21 ) ) REPRESENTATION_CONTEXT ( 'NONE', 'WORKASPACE' ) );
#228 = AXIS2_PLACEMENT_3D ( 'NONE', #29, #342, #313 ) ;
#229 = VERTEX_POINT ( 'NONE', #256 ) ;
#230 = CARTESIAN_POINT ( 'NONE',  ( -12.30068400000012119, 0.0000000000000000000, -39.99999999999995737 ) ) ;
#231 = EDGE_LOOP ( 'NONE', ( #212 ) ) ;
#232 = STYLED_ITEM ( 'NONE', ( #268 ), #78 ) ;
#233 = AXIS2_PLACEMENT_3D ( 'NONE', #132, #250, #330 ) ;
#234 = ORIENTED_EDGE ( 'NONE', *, *, #122, .T. ) ;
#235 = EDGE_LOOP ( 'NONE', ( #284 ) ) ;
#236 = CYLINDRICAL_SURFACE ( 'NONE', #138, 10.50000000000000000 ) ;
#237 = DIRECTION ( 'NONE',  ( 3.491481338843133355E-15, 0.0000000000000000000, 1.000000000000000000 ) ) ;
#238 = DIRECTION ( 'NONE',  ( 1.000000000000000000, 0.0000000000000000000, -3.491481338843133355E-15 ) ) ;
#239 = ADVANCED_FACE ( 'NONE', ( #198, #340 ), #83, .T. ) ;
#240 = CARTESIAN_POINT ( 'NONE',  ( -1.389609572859567202E-13, 10.50000000000000000, -39.80000000000000426 ) ) ;
#241 = CIRCLE ( 'NONE', #125, 9.500000000000000000 ) ;
#242 = EDGE_LOOP ( 'NONE', ( #117 ) ) ;
#243 = CARTESIAN_POINT ( 'NONE',  ( -1.396592535537253342E-13, 0.0000000000000000000, -40.00000000000000000 ) ) ;
#244 = DIRECTION ( 'NONE',  ( 3.491481338843133355E-15, 0.0000000000000000000, 1.000000000000000000 ) ) ;
#245 = FACE_BOUND ( 'NONE', #242, .T. ) ;
#246 = VERTEX_POINT ( 'NONE', #223 ) ;
#247 = DIRECTION ( 'NONE',  ( -1.000000000000000000, 0.0000000000000000000, 3.469446951953614189E-15 ) ) ;
#248 = DIRECTION ( 'NONE',  ( -3.491481338843133355E-15, 0.0000000000000000000, -1.000000000000000000 ) ) ;
#249 = CIRCLE ( 'NONE', #233, 9.500000000000000000 ) ;
#250 = DIRECTION ( 'NONE',  ( -3.491481338843133355E-15, 0.0000000000000000000, -1.000000000000000000 ) ) ;
#251 = UNCERTAINTY_MEASURE_WITH_UNIT (LENGTH_MEASURE( 1.000000000000000082E-05 ), #58, 'distance_accuracy_value', 'NONE');
#252 = CARTESIAN_POINT ( 'NONE',  ( -3.042084047017286134E-14, 0.0000000000000000000, -8.712875000000000369 ) ) ;
#253 = FILL_AREA_STYLE_COLOUR ( '', #34 ) ;
#254 = DIRECTION ( 'NONE',  ( -1.000000000000000000, 0.0000000000000000000, 3.652049423109067235E-15 ) ) ;
#255 = AXIS2_PLACEMENT_3D ( 'NONE', #91, #266, #291 ) ;
#256 = CARTESIAN_POINT ( 'NONE',  ( 5.999999999999966249, 0.0000000000000000000, -9.800000000000020250 ) ) ;
#257 = ORIENTED_EDGE ( 'NONE', *, *, #337, .F. ) ;
#258 = VERTEX_POINT ( 'NONE', #230 ) ;
#259 = ORIENTED_EDGE ( 'NONE', *, *, #154, .F. ) ;
#260 = CIRCLE ( 'NONE', #108, 10.34999999999999964 ) ;
#261 = ADVANCED_FACE ( 'NONE', ( #365, #72 ), #25, .F. ) ;
#262 = EDGE_CURVE ( 'NONE', #84, #84, #274, .T. ) ;
#263 = EDGE_LOOP ( 'NONE', ( #234 ) ) ;
#264 = SURFACE_STYLE_USAGE ( .BOTH. , #90 ) ;
#265 = CIRCLE ( 'NONE', #52, 10.11287500000000072 ) ;
#266 = DIRECTION ( 'NONE',  ( -3.491481338843133355E-15, 0.0000000000000000000, -1.000000000000000000 ) ) ;
#267 = DIRECTION ( 'NONE',  ( -1.000000000000000000, 0.0000000000000000000, 3.491938379999856028E-15 ) ) ;
#268 = PRESENTATION_STYLE_ASSIGNMENT (( #264 ) ) ;
#269 = DIRECTION ( 'NONE',  ( -3.491481338843133355E-15, 0.0000000000000000000, -1.000000000000000000 ) ) ;
#270 = CYLINDRICAL_SURFACE ( 'NONE', #324, 8.000000000000000000 ) ;
#271 = FACE_BOUND ( 'NONE', #2, .T. ) ;
#272 = FACE_BOUND ( 'NONE', #57, .T. ) ;
#273 = CARTESIAN_POINT ( 'NONE',  ( -3.421651712066270688E-14, 0.0000000000000000000, -9.799999999999998934 ) ) ;
#274 = CIRCLE ( 'NONE', #170, 6.000000000000000000 ) ;
#275 = ADVANCED_FACE ( 'NONE', ( #304, #217 ), #270, .F. ) ;
#276 = VERTEX_POINT ( 'NONE', #215 ) ;
#277 = FACE_OUTER_BOUND ( 'NONE', #344, .T. ) ;
#278 = DIRECTION ( 'NONE',  ( -1.000000000000000000, 0.0000000000000000000, 3.304235192336775512E-15 ) ) ;
#279 = CARTESIAN_POINT ( 'NONE',  ( -3.018490173895947507E-14, 0.0000000000000000000, -8.645299461620760795 ) ) ;
#280 = DIRECTION ( 'NONE',  ( 1.000000000000000000, 0.0000000000000000000, -3.469446951953614189E-15 ) ) ;
#281 =( NAMED_UNIT ( * ) PLANE_ANGLE_UNIT ( ) SI_UNIT ( $, .RADIAN. ) );
#282 = EDGE_LOOP ( 'NONE', ( #293 ) ) ;
#283 = APPLICATION_PROTOCOL_DEFINITION ( 'draft international standard', 'automotive_design', 1998, #288 ) ;
#284 = ORIENTED_EDGE ( 'NONE', *, *, #71, .T. ) ;
#285 = AXIS2_PLACEMENT_3D ( 'NONE', #185, #216, #156 ) ;
#286 =( GEOMETRIC_REPRESENTATION_CONTEXT ( 3 ) GLOBAL_UNCERTAINTY_ASSIGNED_CONTEXT ( ( #251 ) ) GLOBAL_UNIT_ASSIGNED_CONTEXT ( ( #58, #281, #372 ) ) REPRESENTATION_CONTEXT ( 'NONE', 'WORKASPACE' ) );
#287 = CARTESIAN_POINT ( 'NONE',  ( -1.553709195785194280E-13, 0.0000000000000000000, -44.50000000000000000 ) ) ;
#288 = APPLICATION_CONTEXT ( 'automotive_design' ) ;
#289 = FACE_OUTER_BOUND ( 'NONE', #7, .T. ) ;
#290 = PRODUCT_DEFINITION_SHAPE ( 'NONE', 'NONE',  #168 ) ;
#291 = DIRECTION ( 'NONE',  ( -1.000000000000000000, 0.0000000000000000000, 3.491938379999856028E-15 ) ) ;
#292 = AXIS2_PLACEMENT_3D ( 'NONE', #62, #237, #238 ) ;
#293 = ORIENTED_EDGE ( 'NONE', *, *, #346, .T. ) ;
#294 = CARTESIAN_POINT ( 'NONE',  ( -1.891900344569893752E-13, 0.0000000000000000000, -54.18617947408979774 ) ) ;
#295 = PLANE ( 'NONE',  #292 ) ;
#296 = ADVANCED_FACE ( 'NONE', ( #46, #277 ), #187, .T. ) ;
#297 = VERTEX_POINT ( 'NONE', #98 ) ;
#298 = DIRECTION ( 'NONE',  ( 0.0000000000000000000, 1.000000000000000000, 0.0000000000000000000 ) ) ;
#299 = CIRCLE ( 'NONE', #255, 9.400000000000000355 ) ;
#300 = MECHANICAL_DESIGN_GEOMETRIC_PRESENTATION_REPRESENTATION (  '', ( #232 ), #227 ) ;
#301 = AXIS2_PLACEMENT_3D ( 'NONE', #161, #332, #325 ) ;
#302 = VERTEX_POINT ( 'NONE', #184 ) ;
#303 = FACE_OUTER_BOUND ( 'NONE', #109, .T. ) ;
#304 = FACE_OUTER_BOUND ( 'NONE', #263, .T. ) ;
#305 = DIRECTION ( 'NONE',  ( 3.491481338843133355E-15, 0.0000000000000000000, 1.000000000000000000 ) ) ;
#306 = ADVANCED_FACE ( 'NONE', ( #100, #328 ), #22, .T. ) ;
#307 = CIRCLE ( 'NONE', #202, 8.000000000000000000 ) ;
#308 = CARTESIAN_POINT ( 'NONE',  ( 0.0000000000000000000, 0.0000000000000000000, 0.0000000000000000000 ) ) ;
#309 = AXIS2_PLACEMENT_3D ( 'NONE', #294, #70, #364 ) ;
#310 = EDGE_LOOP ( 'NONE', ( #3 ) ) ;
#311 = FILL_AREA_STYLE ('',( #253 ) ) ;
#312 = EDGE_CURVE ( 'NONE', #338, #338, #359, .T. ) ;
#313 = DIRECTION ( 'NONE',  ( 1.000000000000000000, 0.0000000000000000000, 0.0000000000000000000 ) ) ;
#314 = CIRCLE ( 'NONE', #159, 10.50000000000000000 ) ;
#315 = ORIENTED_EDGE ( 'NONE', *, *, #207, .T. ) ;
#316 = EDGE_LOOP ( 'NONE', ( #146 ) ) ;
#317 = AXIS2_PLACEMENT_3D ( 'NONE', #252, #369, #106 ) ;
#318 =( LENGTH_UNIT ( ) NAMED_UNIT ( * ) SI_UNIT ( .MILLI., .METRE. ) );
#319 = EDGE_LOOP ( 'NONE', ( #259 ) ) ;
#320 = ADVANCED_BREP_SHAPE_REPRESENTATION ( 'SK16-12_light', ( #78, #228 ), #286 ) ;
#321 = DIRECTION ( 'NONE',  ( -3.491481338843133355E-15, 0.0000000000000000000, -1.000000000000000000 ) ) ;
#322 = CARTESIAN_POINT ( 'NONE',  ( 1.364508115154554993E-14, 0.0000000000000000000, 3.908106567760349925 ) ) ;
#323 = CONICAL_SURFACE ( 'NONE', #1, 9.849999999999999645, 0.7853981633974476129 ) ;
#324 = AXIS2_PLACEMENT_3D ( 'NONE', #221, #244, #13 ) ;
#325 = DIRECTION ( 'NONE',  ( -1.000000000000000000, 0.0000000000000000000, 3.522281169496055046E-15 ) ) ;
#326 = FACE_OUTER_BOUND ( 'NONE', #28, .T. ) ;
#327 = EDGE_CURVE ( 'NONE', #141, #141, #249, .T. ) ;
#328 = FACE_OUTER_BOUND ( 'NONE', #112, .T. ) ;
#329 = DIRECTION ( 'NONE',  ( -1.000000000000000000, 0.0000000000000000000, 3.352122658892380954E-15 ) ) ;
#330 = DIRECTION ( 'NONE',  ( -1.000000000000000000, 0.0000000000000000000, 3.652049423109067235E-15 ) ) ;
#331 = CIRCLE ( 'NONE', #39, 9.199999999999999289 ) ;
#332 = DIRECTION ( 'NONE',  ( -3.491481338843133355E-15, 0.0000000000000000000, -1.000000000000000000 ) ) ;
#333 = CARTESIAN_POINT ( 'NONE',  ( -1.571166602479409884E-13, 9.849999999999999645, -45.00000000000000000 ) ) ;
#334 =( NAMED_UNIT ( * ) PLANE_ANGLE_UNIT ( ) SI_UNIT ( $, .RADIAN. ) );
#335 = AXIS2_PLACEMENT_3D ( 'NONE', #210, #151, #147 ) ;
#336 = CIRCLE ( 'NONE', #67, 12.30068399999998086 ) ;
#337 = EDGE_CURVE ( 'NONE', #258, #258, #336, .T. ) ;
#338 = VERTEX_POINT ( 'NONE', #81 ) ;
#339 = CARTESIAN_POINT ( 'NONE',  ( -6.000000000000157208, 0.0000000000000000000, -44.99999999999997868 ) ) ;
#340 = FACE_OUTER_BOUND ( 'NONE', #370, .T. ) ;
#341 = EDGE_LOOP ( 'NONE', ( #347 ) ) ;
#342 = DIRECTION ( 'NONE',  ( 0.0000000000000000000, 0.0000000000000000000, 1.000000000000000000 ) ) ;
#343 = CIRCLE ( 'NONE', #30, 8.000000000000000000 ) ;
#344 = EDGE_LOOP ( 'NONE', ( #32 ) ) ;
#345 = CIRCLE ( 'NONE', #116, 6.000000000000000000 ) ;
#346 = EDGE_CURVE ( 'NONE', #135, #135, #182, .T. ) ;
#347 = ORIENTED_EDGE ( 'NONE', *, *, #356, .F. ) ;
#348 = ORIENTED_EDGE ( 'NONE', *, *, #177, .F. ) ;
#349 = EDGE_LOOP ( 'NONE', ( #123 ) ) ;
#350 = AXIS2_PLACEMENT_3D ( 'NONE', #287, #149, #152 ) ;
#351 = PRODUCT_DEFINITION_CONTEXT ( 'detailed design', #55, 'design' ) ;
#352 = ORIENTED_EDGE ( 'NONE', *, *, #4, .T. ) ;
#353 = DIRECTION ( 'NONE',  ( 3.491481338843133355E-15, 0.0000000000000000000, 1.000000000000000000 ) ) ;
#354 = CYLINDRICAL_SURFACE ( 'NONE', #89, 6.000000000000000000 ) ;
#355 = FACE_BOUND ( 'NONE', #231, .T. ) ;
#356 = EDGE_CURVE ( 'NONE', #229, #229, #345, .T. ) ;
#357 =( NAMED_UNIT ( * ) PLANE_ANGLE_UNIT ( ) SI_UNIT ( $, .RADIAN. ) );
#358 = DIRECTION ( 'NONE',  ( -1.000000000000000000, 0.0000000000000000000, 3.506355962080779970E-15 ) ) ;
#359 = CIRCLE ( 'NONE', #189, 9.400000000000000355 ) ;
#360 = DIRECTION ( 'NONE',  ( -1.000000000000000000, 0.0000000000000000000, 3.304235192336775512E-15 ) ) ;
#361 = CARTESIAN_POINT ( 'NONE',  ( 7.999999999999970690, 0.0000000000000000000, -8.645299461620789216 ) ) ;
#362 = CYLINDRICAL_SURFACE ( 'NONE', #195, 10.34999999999999964 ) ;
#363 = FACE_OUTER_BOUND ( 'NONE', #201, .T. ) ;
#364 = DIRECTION ( 'NONE',  ( -1.000000000000000000, 0.0000000000000000000, 3.652049423109067235E-15 ) ) ;
#365 = FACE_BOUND ( 'NONE', #341, .T. ) ;
#366 = CIRCLE ( 'NONE', #350, 10.34999999999999964 ) ;
#367 = DIRECTION ( 'NONE',  ( -3.491481338843133355E-15, 0.0000000000000000000, -1.000000000000000000 ) ) ;
#368 = VERTEX_POINT ( 'NONE', #20 ) ;
#369 = DIRECTION ( 'NONE',  ( -3.491481338843133355E-15, 0.0000000000000000000, -1.000000000000000000 ) ) ;
#370 = EDGE_LOOP ( 'NONE', ( #205 ) ) ;
#371 = ORIENTED_EDGE ( 'NONE', *, *, #312, .T. ) ;
#372 =( NAMED_UNIT ( * ) SI_UNIT ( $, .STERADIAN. ) SOLID_ANGLE_UNIT ( ) );
#373 = ORIENTED_EDGE ( 'NONE', *, *, #327, .F. ) ;
#374 =( LENGTH_UNIT ( ) NAMED_UNIT ( * ) SI_UNIT ( .MILLI., .METRE. ) );
ENDSEC;
END-ISO-10303-21;
